Descarga Oficial - 100% Gratis

22 de mayo de 2007

Enero Y Abril - Julieta Venegas

Julieta Venegas
Enero Y Abril (TAB)

A.S.M.L.

empieza en la guitarra asi con un distor muy leve

a---------------------------------------------
B---------------------------------------------
G----4-----4----------------------------------
D---4-----4-----------------------------------
A--4-----4------------------------------------
E---------------------------------------------

a---------------------------------------------
B---------------------------------------------
G---------------------------------------------
D----4---4------------------------------------
A---6---6-------------------------------------
E--4---4--------------------------------------


(y cuando dise)

A# G# F# d#
si solo quisieras bien podria hacerte feliz solo
este dia haria enero y abril...

y cuando se escucha la bateria y el teclado
solo hace asi

a-------------------------------------------
B-------------------------------------------
G-------------------------------------------
D-------------------------------------------
A-------------------------------------------
E--4--------4-----------4----------4--------


y solo se repite lo que ya esta escrito

No hay comentarios: